ISO-10303-21;
HEADER;
/* Generated by software containing ST-Developer
 * from STEP Tools, Inc. (www.steptools.com) 
 */

FILE_DESCRIPTION(
/* description */ (''),
/* implementation_level */ '2;1');

FILE_NAME(
/* name */ 
'C:/Users/Alex McAlpine/Desktop/Web/12282020/Camera Mount - Assembly_A
djuster Block Base v1.step',
/* time_stamp */ '2020-12-28T18:00:58-05:00',
/* author */ (''),
/* organization */ (''),
/* preprocessor_version */ 'ST-DEVELOPER v18.1',
/* originating_system */ 'Autodesk Translation Framework v9.7.1.1290',
/* authorisation */ '');

FILE_SCHEMA (('AUTOMOTIVE_DESIGN { 1 0 10303 214 3 1 1 }'));
ENDSEC;

DATA;
#10=MECHANICAL_DESIGN_GEOMETRIC_PRESENTATION_REPRESENTATION('',(#13),#471);
#11=SHAPE_REPRESENTATION_RELATIONSHIP('SRR','None',#481,#12);
#12=ADVANCED_BREP_SHAPE_REPRESENTATION('',(#14),#470);
#13=STYLED_ITEM('',(#490),#14);
#14=MANIFOLD_SOLID_BREP('Body1 (1)',#283);
#15=FACE_BOUND('',#53,.T.);
#16=FACE_BOUND('',#55,.T.);
#17=FACE_BOUND('',#56,.T.);
#18=FACE_BOUND('',#59,.T.);
#19=FACE_BOUND('',#65,.T.);
#20=FACE_BOUND('',#66,.T.);
#21=FACE_BOUND('',#67,.T.);
#22=FACE_BOUND('',#68,.T.);
#23=PLANE('',#309);
#24=PLANE('',#310);
#25=PLANE('',#311);
#26=PLANE('',#312);
#27=PLANE('',#313);
#28=PLANE('',#314);
#29=PLANE('',#315);
#30=PLANE('',#316);
#31=PLANE('',#317);
#32=PLANE('',#318);
#33=FACE_OUTER_BOUND('',#47,.T.);
#34=FACE_OUTER_BOUND('',#48,.T.);
#35=FACE_OUTER_BOUND('',#49,.T.);
#36=FACE_OUTER_BOUND('',#50,.T.);
#37=FACE_OUTER_BOUND('',#51,.T.);
#38=FACE_OUTER_BOUND('',#52,.T.);
#39=FACE_OUTER_BOUND('',#54,.T.);
#40=FACE_OUTER_BOUND('',#57,.T.);
#41=FACE_OUTER_BOUND('',#58,.T.);
#42=FACE_OUTER_BOUND('',#60,.T.);
#43=FACE_OUTER_BOUND('',#61,.T.);
#44=FACE_OUTER_BOUND('',#62,.T.);
#45=FACE_OUTER_BOUND('',#63,.T.);
#46=FACE_OUTER_BOUND('',#64,.T.);
#47=EDGE_LOOP('',(#193,#194,#195,#196));
#48=EDGE_LOOP('',(#197,#198,#199,#200));
#49=EDGE_LOOP('',(#201,#202,#203,#204));
#50=EDGE_LOOP('',(#205,#206,#207,#208));
#51=EDGE_LOOP('',(#209,#210,#211,#212));
#52=EDGE_LOOP('',(#213,#214,#215,#216));
#53=EDGE_LOOP('',(#217));
#54=EDGE_LOOP('',(#218,#219,#220,#221));
#55=EDGE_LOOP('',(#222));
#56=EDGE_LOOP('',(#223));
#57=EDGE_LOOP('',(#224,#225,#226,#227));
#58=EDGE_LOOP('',(#228,#229,#230,#231));
#59=EDGE_LOOP('',(#232));
#60=EDGE_LOOP('',(#233,#234,#235,#236));
#61=EDGE_LOOP('',(#237,#238,#239,#240,#241,#242,#243,#244));
#62=EDGE_LOOP('',(#245,#246,#247,#248));
#63=EDGE_LOOP('',(#249,#250,#251,#252,#253,#254,#255,#256));
#64=EDGE_LOOP('',(#257,#258,#259,#260));
#65=EDGE_LOOP('',(#261));
#66=EDGE_LOOP('',(#262));
#67=EDGE_LOOP('',(#263));
#68=EDGE_LOOP('',(#264));
#69=LINE('',#398,#97);
#70=LINE('',#404,#98);
#71=LINE('',#410,#99);
#72=LINE('',#416,#100);
#73=LINE('',#421,#101);
#74=LINE('',#423,#102);
#75=LINE('',#425,#103);
#76=LINE('',#426,#104);
#77=LINE('',#429,#105);
#78=LINE('',#431,#106);
#79=LINE('',#432,#107);
#80=LINE('',#435,#108);
#81=LINE('',#437,#109);
#82=LINE('',#438,#110);
#83=LINE('',#441,#111);
#84=LINE('',#443,#112);
#85=LINE('',#444,#113);
#86=LINE('',#447,#114);
#87=LINE('',#449,#115);
#88=LINE('',#450,#116);
#89=LINE('',#454,#117);
#90=LINE('',#455,#118);
#91=LINE('',#456,#119);
#92=LINE('',#459,#120);
#93=LINE('',#460,#121);
#94=LINE('',#463,#122);
#95=LINE('',#464,#123);
#96=LINE('',#466,#124);
#97=VECTOR('',#325,0.1615);
#98=VECTOR('',#332,0.1615);
#99=VECTOR('',#339,0.1615);
#100=VECTOR('',#346,0.1615);
#101=VECTOR('',#351,0.393700787401575);
#102=VECTOR('',#352,0.393700787401575);
#103=VECTOR('',#353,0.393700787401575);
#104=VECTOR('',#354,0.393700787401575);
#105=VECTOR('',#357,0.393700787401575);
#106=VECTOR('',#358,0.393700787401575);
#107=VECTOR('',#359,0.393700787401575);
#108=VECTOR('',#362,0.393700787401575);
#109=VECTOR('',#363,0.393700787401575);
#110=VECTOR('',#364,0.393700787401575);
#111=VECTOR('',#367,0.393700787401575);
#112=VECTOR('',#368,0.393700787401575);
#113=VECTOR('',#369,0.393700787401575);
#114=VECTOR('',#372,0.393700787401575);
#115=VECTOR('',#373,0.393700787401575);
#116=VECTOR('',#374,0.393700787401575);
#117=VECTOR('',#377,0.393700787401575);
#118=VECTOR('',#378,0.393700787401575);
#119=VECTOR('',#379,0.393700787401575);
#120=VECTOR('',#382,0.393700787401575);
#121=VECTOR('',#383,0.393700787401575);
#122=VECTOR('',#386,0.393700787401575);
#123=VECTOR('',#387,0.393700787401575);
#124=VECTOR('',#390,0.393700787401575);
#125=CIRCLE('',#298,0.1615);
#126=CIRCLE('',#299,0.1615);
#127=CIRCLE('',#301,0.1615);
#128=CIRCLE('',#302,0.1615);
#129=CIRCLE('',#304,0.1615);
#130=CIRCLE('',#305,0.1615);
#131=CIRCLE('',#307,0.1615);
#132=CIRCLE('',#308,0.1615);
#133=VERTEX_POINT('',#395);
#134=VERTEX_POINT('',#397);
#135=VERTEX_POINT('',#401);
#136=VERTEX_POINT('',#403);
#137=VERTEX_POINT('',#407);
#138=VERTEX_POINT('',#409);
#139=VERTEX_POINT('',#413);
#140=VERTEX_POINT('',#415);
#141=VERTEX_POINT('',#419);
#142=VERTEX_POINT('',#420);
#143=VERTEX_POINT('',#422);
#144=VERTEX_POINT('',#424);
#145=VERTEX_POINT('',#428);
#146=VERTEX_POINT('',#430);
#147=VERTEX_POINT('',#434);
#148=VERTEX_POINT('',#436);
#149=VERTEX_POINT('',#440);
#150=VERTEX_POINT('',#442);
#151=VERTEX_POINT('',#446);
#152=VERTEX_POINT('',#448);
#153=VERTEX_POINT('',#452);
#154=VERTEX_POINT('',#453);
#155=VERTEX_POINT('',#458);
#156=VERTEX_POINT('',#462);
#157=EDGE_CURVE('',#133,#133,#125,.T.);
#158=EDGE_CURVE('',#133,#134,#69,.T.);
#159=EDGE_CURVE('',#134,#134,#126,.T.);
#160=EDGE_CURVE('',#135,#135,#127,.T.);
#161=EDGE_CURVE('',#135,#136,#70,.T.);
#162=EDGE_CURVE('',#136,#136,#128,.T.);
#163=EDGE_CURVE('',#137,#137,#129,.T.);
#164=EDGE_CURVE('',#137,#138,#71,.T.);
#165=EDGE_CURVE('',#138,#138,#130,.T.);
#166=EDGE_CURVE('',#139,#139,#131,.T.);
#167=EDGE_CURVE('',#139,#140,#72,.T.);
#168=EDGE_CURVE('',#140,#140,#132,.T.);
#169=EDGE_CURVE('',#141,#142,#73,.T.);
#170=EDGE_CURVE('',#141,#143,#74,.T.);
#171=EDGE_CURVE('',#144,#143,#75,.T.);
#172=EDGE_CURVE('',#142,#144,#76,.T.);
#173=EDGE_CURVE('',#145,#144,#77,.T.);
#174=EDGE_CURVE('',#143,#146,#78,.T.);
#175=EDGE_CURVE('',#146,#145,#79,.T.);
#176=EDGE_CURVE('',#142,#147,#80,.T.);
#177=EDGE_CURVE('',#147,#148,#81,.T.);
#178=EDGE_CURVE('',#148,#141,#82,.T.);
#179=EDGE_CURVE('',#147,#149,#83,.T.);
#180=EDGE_CURVE('',#150,#149,#84,.T.);
#181=EDGE_CURVE('',#148,#150,#85,.T.);
#182=EDGE_CURVE('',#151,#150,#86,.T.);
#183=EDGE_CURVE('',#149,#152,#87,.T.);
#184=EDGE_CURVE('',#152,#151,#88,.T.);
#185=EDGE_CURVE('',#153,#154,#89,.T.);
#186=EDGE_CURVE('',#153,#145,#90,.T.);
#187=EDGE_CURVE('',#154,#146,#91,.T.);
#188=EDGE_CURVE('',#155,#154,#92,.T.);
#189=EDGE_CURVE('',#155,#151,#93,.T.);
#190=EDGE_CURVE('',#156,#155,#94,.T.);
#191=EDGE_CURVE('',#156,#152,#95,.T.);
#192=EDGE_CURVE('',#156,#153,#96,.T.);
#193=ORIENTED_EDGE('',*,*,#157,.F.);
#194=ORIENTED_EDGE('',*,*,#158,.T.);
#195=ORIENTED_EDGE('',*,*,#159,.F.);
#196=ORIENTED_EDGE('',*,*,#158,.F.);
#197=ORIENTED_EDGE('',*,*,#160,.F.);
#198=ORIENTED_EDGE('',*,*,#161,.T.);
#199=ORIENTED_EDGE('',*,*,#162,.F.);
#200=ORIENTED_EDGE('',*,*,#161,.F.);
#201=ORIENTED_EDGE('',*,*,#163,.F.);
#202=ORIENTED_EDGE('',*,*,#164,.T.);
#203=ORIENTED_EDGE('',*,*,#165,.F.);
#204=ORIENTED_EDGE('',*,*,#164,.F.);
#205=ORIENTED_EDGE('',*,*,#166,.F.);
#206=ORIENTED_EDGE('',*,*,#167,.T.);
#207=ORIENTED_EDGE('',*,*,#168,.F.);
#208=ORIENTED_EDGE('',*,*,#167,.F.);
#209=ORIENTED_EDGE('',*,*,#169,.F.);
#210=ORIENTED_EDGE('',*,*,#170,.T.);
#211=ORIENTED_EDGE('',*,*,#171,.F.);
#212=ORIENTED_EDGE('',*,*,#172,.F.);
#213=ORIENTED_EDGE('',*,*,#173,.T.);
#214=ORIENTED_EDGE('',*,*,#171,.T.);
#215=ORIENTED_EDGE('',*,*,#174,.T.);
#216=ORIENTED_EDGE('',*,*,#175,.T.);
#217=ORIENTED_EDGE('',*,*,#163,.T.);
#218=ORIENTED_EDGE('',*,*,#169,.T.);
#219=ORIENTED_EDGE('',*,*,#176,.T.);
#220=ORIENTED_EDGE('',*,*,#177,.T.);
#221=ORIENTED_EDGE('',*,*,#178,.T.);
#222=ORIENTED_EDGE('',*,*,#159,.T.);
#223=ORIENTED_EDGE('',*,*,#162,.T.);
#224=ORIENTED_EDGE('',*,*,#177,.F.);
#225=ORIENTED_EDGE('',*,*,#179,.T.);
#226=ORIENTED_EDGE('',*,*,#180,.F.);
#227=ORIENTED_EDGE('',*,*,#181,.F.);
#228=ORIENTED_EDGE('',*,*,#182,.T.);
#229=ORIENTED_EDGE('',*,*,#180,.T.);
#230=ORIENTED_EDGE('',*,*,#183,.T.);
#231=ORIENTED_EDGE('',*,*,#184,.T.);
#232=ORIENTED_EDGE('',*,*,#166,.T.);
#233=ORIENTED_EDGE('',*,*,#185,.F.);
#234=ORIENTED_EDGE('',*,*,#186,.T.);
#235=ORIENTED_EDGE('',*,*,#175,.F.);
#236=ORIENTED_EDGE('',*,*,#187,.F.);
#237=ORIENTED_EDGE('',*,*,#188,.T.);
#238=ORIENTED_EDGE('',*,*,#187,.T.);
#239=ORIENTED_EDGE('',*,*,#174,.F.);
#240=ORIENTED_EDGE('',*,*,#170,.F.);
#241=ORIENTED_EDGE('',*,*,#178,.F.);
#242=ORIENTED_EDGE('',*,*,#181,.T.);
#243=ORIENTED_EDGE('',*,*,#182,.F.);
#244=ORIENTED_EDGE('',*,*,#189,.F.);
#245=ORIENTED_EDGE('',*,*,#190,.T.);
#246=ORIENTED_EDGE('',*,*,#189,.T.);
#247=ORIENTED_EDGE('',*,*,#184,.F.);
#248=ORIENTED_EDGE('',*,*,#191,.F.);
#249=ORIENTED_EDGE('',*,*,#192,.F.);
#250=ORIENTED_EDGE('',*,*,#191,.T.);
#251=ORIENTED_EDGE('',*,*,#183,.F.);
#252=ORIENTED_EDGE('',*,*,#179,.F.);
#253=ORIENTED_EDGE('',*,*,#176,.F.);
#254=ORIENTED_EDGE('',*,*,#172,.T.);
#255=ORIENTED_EDGE('',*,*,#173,.F.);
#256=ORIENTED_EDGE('',*,*,#186,.F.);
#257=ORIENTED_EDGE('',*,*,#192,.T.);
#258=ORIENTED_EDGE('',*,*,#185,.T.);
#259=ORIENTED_EDGE('',*,*,#188,.F.);
#260=ORIENTED_EDGE('',*,*,#190,.F.);
#261=ORIENTED_EDGE('',*,*,#157,.T.);
#262=ORIENTED_EDGE('',*,*,#160,.T.);
#263=ORIENTED_EDGE('',*,*,#165,.T.);
#264=ORIENTED_EDGE('',*,*,#168,.T.);
#265=CYLINDRICAL_SURFACE('',#297,0.1615);
#266=CYLINDRICAL_SURFACE('',#300,0.1615);
#267=CYLINDRICAL_SURFACE('',#303,0.1615);
#268=CYLINDRICAL_SURFACE('',#306,0.1615);
#269=ADVANCED_FACE('',(#33),#265,.F.);
#270=ADVANCED_FACE('',(#34),#266,.F.);
#271=ADVANCED_FACE('',(#35),#267,.F.);
#272=ADVANCED_FACE('',(#36),#268,.F.);
#273=ADVANCED_FACE('',(#37),#23,.T.);
#274=ADVANCED_FACE('',(#38,#15),#24,.T.);
#275=ADVANCED_FACE('',(#39,#16,#17),#25,.T.);
#276=ADVANCED_FACE('',(#40),#26,.T.);
#277=ADVANCED_FACE('',(#41,#18),#27,.T.);
#278=ADVANCED_FACE('',(#42),#28,.T.);
#279=ADVANCED_FACE('',(#43),#29,.T.);
#280=ADVANCED_FACE('',(#44),#30,.T.);
#281=ADVANCED_FACE('',(#45),#31,.T.);
#282=ADVANCED_FACE('',(#46,#19,#20,#21,#22),#32,.F.);
#283=CLOSED_SHELL('',(#269,#270,#271,#272,#273,#274,#275,#276,#277,#278,
#279,#280,#281,#282));
#284=DERIVED_UNIT_ELEMENT(#286,1.);
#285=DERIVED_UNIT_ELEMENT(#475,-3.);
#286=(
MASS_UNIT()
NAMED_UNIT(*)
SI_UNIT(.KILO.,.GRAM.)
);
#287=DERIVED_UNIT((#284,#285));
#288=MEASURE_REPRESENTATION_ITEM('density measure',
POSITIVE_RATIO_MEASURE(4430.),#287);
#289=PROPERTY_DEFINITION_REPRESENTATION(#294,#291);
#290=PROPERTY_DEFINITION_REPRESENTATION(#295,#292);
#291=REPRESENTATION('material name',(#293),#470);
#292=REPRESENTATION('density',(#288),#470);
#293=DESCRIPTIVE_REPRESENTATION_ITEM('Titanium 6Al-4V',
'Titanium 6Al-4V');
#294=PROPERTY_DEFINITION('material property','material name',#483);
#295=PROPERTY_DEFINITION('material property','density of part',#483);
#296=AXIS2_PLACEMENT_3D('placement',#393,#319,#320);
#297=AXIS2_PLACEMENT_3D('',#394,#321,#322);
#298=AXIS2_PLACEMENT_3D('',#396,#323,#324);
#299=AXIS2_PLACEMENT_3D('',#399,#326,#327);
#300=AXIS2_PLACEMENT_3D('',#400,#328,#329);
#301=AXIS2_PLACEMENT_3D('',#402,#330,#331);
#302=AXIS2_PLACEMENT_3D('',#405,#333,#334);
#303=AXIS2_PLACEMENT_3D('',#406,#335,#336);
#304=AXIS2_PLACEMENT_3D('',#408,#337,#338);
#305=AXIS2_PLACEMENT_3D('',#411,#340,#341);
#306=AXIS2_PLACEMENT_3D('',#412,#342,#343);
#307=AXIS2_PLACEMENT_3D('',#414,#344,#345);
#308=AXIS2_PLACEMENT_3D('',#417,#347,#348);
#309=AXIS2_PLACEMENT_3D('',#418,#349,#350);
#310=AXIS2_PLACEMENT_3D('',#427,#355,#356);
#311=AXIS2_PLACEMENT_3D('',#433,#360,#361);
#312=AXIS2_PLACEMENT_3D('',#439,#365,#366);
#313=AXIS2_PLACEMENT_3D('',#445,#370,#371);
#314=AXIS2_PLACEMENT_3D('',#451,#375,#376);
#315=AXIS2_PLACEMENT_3D('',#457,#380,#381);
#316=AXIS2_PLACEMENT_3D('',#461,#384,#385);
#317=AXIS2_PLACEMENT_3D('',#465,#388,#389);
#318=AXIS2_PLACEMENT_3D('',#467,#391,#392);
#319=DIRECTION('axis',(0.,0.,1.));
#320=DIRECTION('refdir',(1.,0.,0.));
#321=DIRECTION('center_axis',(0.,-1.,-4.13254096496121E-15));
#322=DIRECTION('ref_axis',(-1.,0.,-1.51500047558541E-46));
#323=DIRECTION('center_axis',(-3.66602651596373E-32,-1.,-4.08006961549745E-15));
#324=DIRECTION('ref_axis',(-1.,0.,-1.51500047558541E-46));
#325=DIRECTION('',(0.,-1.,-4.13254096496121E-15));
#326=DIRECTION('center_axis',(3.66602651596373E-32,1.,4.08006961549745E-15));
#327=DIRECTION('ref_axis',(-1.,0.,-1.51500047558541E-46));
#328=DIRECTION('center_axis',(0.,-1.,-4.13254096496121E-15));
#329=DIRECTION('ref_axis',(-1.,0.,-1.51500047558541E-46));
#330=DIRECTION('center_axis',(-3.66602651596373E-32,-1.,-4.08006961549745E-15));
#331=DIRECTION('ref_axis',(-1.,0.,-1.51500047558541E-46));
#332=DIRECTION('',(0.,-1.,-4.13254096496121E-15));
#333=DIRECTION('center_axis',(3.66602651596373E-32,1.,4.08006961549745E-15));
#334=DIRECTION('ref_axis',(-1.,0.,-1.51500047558541E-46));
#335=DIRECTION('center_axis',(0.,1.,4.13254096496121E-15));
#336=DIRECTION('ref_axis',(1.,0.,-3.61932706747471E-61));
#337=DIRECTION('center_axis',(0.,1.,4.19611851826831E-15));
#338=DIRECTION('ref_axis',(1.,0.,-3.61932706747471E-61));
#339=DIRECTION('',(0.,1.,4.13254096496121E-15));
#340=DIRECTION('center_axis',(-3.66602651596373E-32,-1.,-4.08006961549745E-15));
#341=DIRECTION('ref_axis',(1.,0.,-3.61932706747471E-61));
#342=DIRECTION('center_axis',(0.,1.,4.13254096496121E-15));
#343=DIRECTION('ref_axis',(1.,0.,-3.61932706747471E-61));
#344=DIRECTION('center_axis',(0.,1.,4.0212802466738E-15));
#345=DIRECTION('ref_axis',(1.,0.,-3.61932706747471E-61));
#346=DIRECTION('',(0.,1.,4.13254096496121E-15));
#347=DIRECTION('center_axis',(-3.66602651596373E-32,-1.,-4.08006961549745E-15));
#348=DIRECTION('ref_axis',(1.,0.,-3.61932706747471E-61));
#349=DIRECTION('center_axis',(1.,-6.27640444494486E-61,1.49576433973916E-46));
#350=DIRECTION('ref_axis',(-1.49576433973916E-46,-4.08006961549745E-15,
1.));
#351=DIRECTION('',(1.49576433973916E-46,4.08006961549745E-15,-1.));
#352=DIRECTION('',(0.,-1.,-4.19611851826831E-15));
#353=DIRECTION('',(-1.49576433973916E-46,-4.08006961549745E-15,1.));
#354=DIRECTION('',(0.,-1.,-4.19611851826831E-15));
#355=DIRECTION('center_axis',(0.,-1.,-4.19611851826831E-15));
#356=DIRECTION('ref_axis',(0.,4.19611851826831E-15,-1.));
#357=DIRECTION('',(1.,-8.75811540203011E-47,1.49576433973916E-46));
#358=DIRECTION('',(-1.,3.66602651596373E-32,-7.23585655281751E-110));
#359=DIRECTION('',(1.49576433973916E-46,4.08006961549745E-15,-1.));
#360=DIRECTION('center_axis',(-3.66602651596373E-32,-1.,-4.08006961549745E-15));
#361=DIRECTION('ref_axis',(-2.25363554241401E-32,4.08006961549745E-15,-1.));
#362=DIRECTION('',(1.,-3.66602651596372E-32,-2.25363554241402E-32));
#363=DIRECTION('',(-1.49576433973916E-46,-4.08006961549745E-15,1.));
#364=DIRECTION('',(-1.,3.66602651596372E-32,2.25363554241402E-32));
#365=DIRECTION('center_axis',(-1.,6.01488759307216E-61,-1.49576433973916E-46));
#366=DIRECTION('ref_axis',(1.49576433973916E-46,4.08006961549745E-15,-1.));
#367=DIRECTION('',(0.,-1.,-4.0212802466738E-15));
#368=DIRECTION('',(1.49576433973916E-46,4.08006961549745E-15,-1.));
#369=DIRECTION('',(0.,-1.,-4.0212802466738E-15));
#370=DIRECTION('center_axis',(0.,-1.,-4.0212802466738E-15));
#371=DIRECTION('ref_axis',(0.,4.0212802466738E-15,-1.));
#372=DIRECTION('',(-1.,8.75811540203011E-47,-1.49576433973916E-46));
#373=DIRECTION('',(1.,-3.66602651596373E-32,7.23585655281751E-110));
#374=DIRECTION('',(-1.49576433973916E-46,-4.08006961549745E-15,1.));
#375=DIRECTION('center_axis',(-1.,-9.45652183295106E-47,2.25363554241401E-32));
#376=DIRECTION('ref_axis',(-2.25363554241401E-32,4.08006961549745E-15,-1.));
#377=DIRECTION('',(2.25363554241401E-32,-4.08006961549745E-15,1.));
#378=DIRECTION('',(0.,-1.,-4.19611851826831E-15));
#379=DIRECTION('',(0.,-1.,-4.19611851826831E-15));
#380=DIRECTION('center_axis',(2.25363554241401E-32,-4.19611851826831E-15,
1.));
#381=DIRECTION('ref_axis',(-1.,3.66602651596372E-32,2.25363554241402E-32));
#382=DIRECTION('',(-1.,3.66602651596372E-32,2.25363554241402E-32));
#383=DIRECTION('',(0.,-1.,-4.19611851826831E-15));
#384=DIRECTION('center_axis',(1.,9.45652183295106E-47,-2.25363554241401E-32));
#385=DIRECTION('ref_axis',(2.25363554241401E-32,-4.08006961549745E-15,1.));
#386=DIRECTION('',(2.25363554241401E-32,-4.08006961549745E-15,1.));
#387=DIRECTION('',(0.,-1.,-4.19611851826831E-15));
#388=DIRECTION('center_axis',(-2.25363554241401E-32,4.19611851826831E-15,
-1.));
#389=DIRECTION('ref_axis',(1.,-3.66602651596372E-32,-2.25363554241402E-32));
#390=DIRECTION('',(-1.,3.66602651596372E-32,2.25363554241402E-32));
#391=DIRECTION('center_axis',(-3.66602651596373E-32,-1.,-4.08006961549745E-15));
#392=DIRECTION('ref_axis',(-2.25363554241401E-32,4.08006961549745E-15,-1.));
#393=CARTESIAN_POINT('',(0.,0.,0.));
#394=CARTESIAN_POINT('Origin',(0.134418547439031,1.99904801363537,-0.953035211397738));
#395=CARTESIAN_POINT('',(0.295918547439031,1.99904801363537,-0.953035211397738));
#396=CARTESIAN_POINT('Origin',(0.134418547439031,1.99904801363537,-0.953035211397738));
#397=CARTESIAN_POINT('',(0.295918547439031,1.49904801363537,-0.95303521139774));
#398=CARTESIAN_POINT('',(0.295918547439031,1.99904801363537,-0.953035211397738));
#399=CARTESIAN_POINT('Origin',(0.134418547439031,1.49904801363537,-0.95303521139774));
#400=CARTESIAN_POINT('Origin',(2.13441854743903,1.99904801363537,-0.953035211397738));
#401=CARTESIAN_POINT('',(2.29591854743903,1.99904801363537,-0.953035211397738));
#402=CARTESIAN_POINT('Origin',(2.13441854743903,1.99904801363537,-0.953035211397738));
#403=CARTESIAN_POINT('',(2.29591854743903,1.49904801363537,-0.95303521139774));
#404=CARTESIAN_POINT('',(2.29591854743903,1.99904801363537,-0.953035211397738));
#405=CARTESIAN_POINT('Origin',(2.13441854743903,1.49904801363537,-0.95303521139774));
#406=CARTESIAN_POINT('Origin',(-0.615581452560969,0.99904801363537,-0.955112528059378));
#407=CARTESIAN_POINT('',(-0.777081452560969,0.99904801363537,-0.955112528059378));
#408=CARTESIAN_POINT('Origin',(-0.615581452560969,0.99904801363537,-0.955112528059378));
#409=CARTESIAN_POINT('',(-0.777081452560969,1.99904801363537,-0.955112528059374));
#410=CARTESIAN_POINT('',(-0.777081452560969,0.99904801363537,-0.955112528059378));
#411=CARTESIAN_POINT('Origin',(-0.615581452560969,1.99904801363537,-0.955112528059374));
#412=CARTESIAN_POINT('Origin',(2.88441854743903,0.99904801363537,-0.953035211397741));
#413=CARTESIAN_POINT('',(2.72291854743903,0.99904801363537,-0.953035211397741));
#414=CARTESIAN_POINT('Origin',(2.88441854743903,0.99904801363537,-0.953035211397741));
#415=CARTESIAN_POINT('',(2.72291854743903,1.99904801363537,-0.953035211397737));
#416=CARTESIAN_POINT('',(2.72291854743903,0.99904801363537,-0.953035211397741));
#417=CARTESIAN_POINT('Origin',(2.88441854743903,1.99904801363537,-0.953035211397737));
#418=CARTESIAN_POINT('Origin',(-0.365581452560969,1.49904801363537,-1.20303521139774));
#419=CARTESIAN_POINT('',(-0.365581452560969,1.49904801363537,-0.70303521139774));
#420=CARTESIAN_POINT('',(-0.365581452560969,1.49904801363537,-1.20303521139774));
#421=CARTESIAN_POINT('',(-0.365581452560969,1.49904801363537,-1.07803521139774));
#422=CARTESIAN_POINT('',(-0.365581452560969,0.999048013635369,-0.703035211397742));
#423=CARTESIAN_POINT('',(-0.365581452560969,1.49904801363537,-0.70303521139774));
#424=CARTESIAN_POINT('',(-0.365581452560969,0.999048013635371,-1.20303521139774));
#425=CARTESIAN_POINT('',(-0.365581452560969,0.999048013635369,-0.703035211397742));
#426=CARTESIAN_POINT('',(-0.365581452560969,1.49904801363537,-1.20303521139774));
#427=CARTESIAN_POINT('Origin',(1.13441854743903,0.99904801363537,-0.953035211397742));
#428=CARTESIAN_POINT('',(-0.865581452560969,0.999048013635371,-1.20303521139774));
#429=CARTESIAN_POINT('',(-0.365581452560969,0.999048013635371,-1.20303521139774));
#430=CARTESIAN_POINT('',(-0.865581452560969,0.999048013635369,-0.703035211397742));
#431=CARTESIAN_POINT('',(-0.865581452560969,0.999048013635369,-0.703035211397742));
#432=CARTESIAN_POINT('',(-0.865581452560969,0.999048013635371,-1.20303521139774));
#433=CARTESIAN_POINT('Origin',(1.13441854743903,1.49904801363537,-0.95303521139774));
#434=CARTESIAN_POINT('',(2.63441854743903,1.49904801363537,-1.20303521139774));
#435=CARTESIAN_POINT('',(-0.365581452560969,1.49904801363537,-1.20303521139774));
#436=CARTESIAN_POINT('',(2.63441854743903,1.49904801363537,-0.70303521139774));
#437=CARTESIAN_POINT('',(2.63441854743903,1.49904801363537,-0.82803521139774));
#438=CARTESIAN_POINT('',(3.13441854743903,1.49904801363537,-0.70303521139774));
#439=CARTESIAN_POINT('Origin',(2.63441854743903,1.49904801363537,-0.70303521139774));
#440=CARTESIAN_POINT('',(2.63441854743903,0.999048013635371,-1.20303521139774));
#441=CARTESIAN_POINT('',(2.63441854743903,1.49904801363537,-1.20303521139774));
#442=CARTESIAN_POINT('',(2.63441854743903,0.999048013635369,-0.703035211397742));
#443=CARTESIAN_POINT('',(2.63441854743903,0.999048013635371,-1.20303521139774));
#444=CARTESIAN_POINT('',(2.63441854743903,1.49904801363537,-0.70303521139774));
#445=CARTESIAN_POINT('Origin',(2.88441854743903,0.99904801363537,-0.953035211397742));
#446=CARTESIAN_POINT('',(3.13441854743903,0.999048013635369,-0.703035211397742));
#447=CARTESIAN_POINT('',(2.63441854743903,0.999048013635369,-0.703035211397742));
#448=CARTESIAN_POINT('',(3.13441854743903,0.999048013635371,-1.20303521139774));
#449=CARTESIAN_POINT('',(3.13441854743903,0.999048013635371,-1.20303521139774));
#450=CARTESIAN_POINT('',(3.13441854743903,0.999048013635369,-0.703035211397742));
#451=CARTESIAN_POINT('Origin',(-0.865581452560969,1.99904801363537,-0.703035211397738));
#452=CARTESIAN_POINT('',(-0.865581452560969,1.99904801363537,-1.20303521139774));
#453=CARTESIAN_POINT('',(-0.865581452560969,1.99904801363537,-0.703035211397738));
#454=CARTESIAN_POINT('',(-0.865581452560969,1.99904801363537,-1.20303521139774));
#455=CARTESIAN_POINT('',(-0.865581452560969,1.99904801363537,-1.20303521139774));
#456=CARTESIAN_POINT('',(-0.865581452560969,1.99904801363537,-0.703035211397738));
#457=CARTESIAN_POINT('Origin',(3.13441854743903,1.99904801363537,-0.703035211397738));
#458=CARTESIAN_POINT('',(3.13441854743903,1.99904801363537,-0.703035211397738));
#459=CARTESIAN_POINT('',(3.13441854743903,1.99904801363537,-0.703035211397738));
#460=CARTESIAN_POINT('',(3.13441854743903,1.99904801363537,-0.703035211397738));
#461=CARTESIAN_POINT('Origin',(3.13441854743903,1.99904801363537,-1.20303521139774));
#462=CARTESIAN_POINT('',(3.13441854743903,1.99904801363537,-1.20303521139774));
#463=CARTESIAN_POINT('',(3.13441854743903,1.99904801363537,-1.20303521139774));
#464=CARTESIAN_POINT('',(3.13441854743903,1.99904801363537,-1.20303521139774));
#465=CARTESIAN_POINT('Origin',(-0.865581452560969,1.99904801363537,-1.20303521139774));
#466=CARTESIAN_POINT('',(-0.365581452560969,1.99904801363537,-1.20303521139774));
#467=CARTESIAN_POINT('Origin',(1.13441854743903,1.99904801363537,-0.953035211397738));
#468=UNCERTAINTY_MEASURE_WITH_UNIT(LENGTH_MEASURE(0.000393700787401575),
#473,'DISTANCE_ACCURACY_VALUE',
'Maximum model space distance between geometric entities at asserted c
onnectivities');
#469=UNCERTAINTY_MEASURE_WITH_UNIT(LENGTH_MEASURE(0.000393700787401575),
#473,'DISTANCE_ACCURACY_VALUE',
'Maximum model space distance between geometric entities at asserted c
onnectivities');
#470=(
GEOMETRIC_REPRESENTATION_CONTEXT(3)
GLOBAL_UNCERTAINTY_ASSIGNED_CONTEXT((#468))
GLOBAL_UNIT_ASSIGNED_CONTEXT((#473,#477,#478))
REPRESENTATION_CONTEXT('','3D')
);
#471=(
GEOMETRIC_REPRESENTATION_CONTEXT(3)
GLOBAL_UNCERTAINTY_ASSIGNED_CONTEXT((#469))
GLOBAL_UNIT_ASSIGNED_CONTEXT((#473,#477,#478))
REPRESENTATION_CONTEXT('','3D')
);
#472=DIMENSIONAL_EXPONENTS(1.,0.,0.,0.,0.,0.,0.);
#473=(
CONVERSION_BASED_UNIT('inch',#476)
LENGTH_UNIT()
NAMED_UNIT(#472)
);
#474=(
LENGTH_UNIT()
NAMED_UNIT(*)
SI_UNIT(.MILLI.,.METRE.)
);
#475=(
LENGTH_UNIT()
NAMED_UNIT(*)
SI_UNIT($,.METRE.)
);
#476=LENGTH_MEASURE_WITH_UNIT(LENGTH_MEASURE(25.4),#474);
#477=(
NAMED_UNIT(*)
PLANE_ANGLE_UNIT()
SI_UNIT($,.RADIAN.)
);
#478=(
NAMED_UNIT(*)
SI_UNIT($,.STERADIAN.)
SOLID_ANGLE_UNIT()
);
#479=SHAPE_DEFINITION_REPRESENTATION(#480,#481);
#480=PRODUCT_DEFINITION_SHAPE('',$,#483);
#481=SHAPE_REPRESENTATION('',(#296),#470);
#482=PRODUCT_DEFINITION_CONTEXT('part definition',#487,'design');
#483=PRODUCT_DEFINITION('Camera Mount - Assembly_Adjuster Block Base',
'Camera Mount - Assembly_Adjuster Block Base v1',#484,#482);
#484=PRODUCT_DEFINITION_FORMATION('',$,#489);
#485=PRODUCT_RELATED_PRODUCT_CATEGORY(
'Camera Mount - Assembly_Adjuster Block Base v1',
'Camera Mount - Assembly_Adjuster Block Base v1',(#489));
#486=APPLICATION_PROTOCOL_DEFINITION('international standard',
'automotive_design',2009,#487);
#487=APPLICATION_CONTEXT(
'Core Data for Automotive Mechanical Design Process');
#488=PRODUCT_CONTEXT('part definition',#487,'mechanical');
#489=PRODUCT('Camera Mount - Assembly_Adjuster Block Base',
'Camera Mount - Assembly_Adjuster Block Base v1',$,(#488));
#490=PRESENTATION_STYLE_ASSIGNMENT((#491));
#491=SURFACE_STYLE_USAGE(.BOTH.,#492);
#492=SURFACE_SIDE_STYLE('',(#493));
#493=SURFACE_STYLE_FILL_AREA(#494);
#494=FILL_AREA_STYLE('Titanium - Polished',(#495));
#495=FILL_AREA_STYLE_COLOUR('Titanium - Polished',#496);
#496=COLOUR_RGB('Titanium - Polished',0.749019607843137,0.729411764705882,
0.701960784313725);
ENDSEC;
END-ISO-10303-21;
